Weezer-In The Garage

tuning:  Eb (e flat)
timing: 4/4

intro
e /---------------------0-------------------------------------
b /-0---3---------0h1-----------------0---3------0------------
g /---0---0-2---------2---2-0-----0-----0---0-2----2-0---0---0
d /-----------4---------------0-2---------------4------2------
a /---------5---5-0---------------------------5------3---2-0--
e /-3---3-------------------0---------3----------------------3

verse
G/C                  A/D        B/E5  
i've got the dungeons masters guide
G/C                A/D  B/E5
i've got twelve sided di                                e /----------------------------------
G/C        A/D    G                                     b /-------8-----8-----------8-----8--
i've got, kitty pryde                                   g /---7/9---7-----7-----7/9---7-----7
   G/C            G                                     d /---7/9-----9-----9---7/9-----9----
and nightcrawler too                                    a /---5/7---------------5/7----------
  G/C             G       E/D   DslideE5---------->fill e /-0-----------------0--------------
waiting there for me, yes i do, i do
G/C                A/D    B/E5
i've got posters on the wall
G/C                A/D     B/E5
my favorite rock group "kiss"
G/C       A/D      G
i've got, ace frehley
G/C            G
i've go peter criss
G/C               G     E/D    DslideE5
waiting there for me, yes i do, i do

(chorus)
G       A/D    A       E    G        A/D     CC B A G
in the garage, i feel safe, no one cares about my ways
G       A/D    A       E      G       A/D      CC   B  A G
in the garage where i belong, no one hears me sing this song
A        G
in the garage

intro w/
e /-------------------------------------
b /-0-3---------------------------------
g /------2-2-4-5-9-4---4-7-2-2-4-0-0-0-0
d /-------------------------------------
a /-------------------------------------
e /-------------------------------------

(just distorted bass)
G/C               A/D    B/E5
i've got electric guitar
G/C             A/D    B/E5
i play my stupid songs
G/C             A/D      G      
i write these stupid words
C/G            G
and i love everyone
G                G/C     E/D    DslideE5
waiting there for me yes i do, i do

(chorus)
G       A/D    A       E    G        A/D     CC B A G
in the garage, i feel safe, no one cares about my ways
G       A/D    A       E      G       A/D      CC   B  A G
in the garage where i belong, no one hears me sing this song
A        G      A       G     
in the garage, in the garage,  WHA!

SOLO
e-----------------------------------------------------
B-5---5---7-----9-------12----12----14----15----17----
G-7b9-7b9-9b11-11b13----14b16-14b16-16b18-17b19-19b21-
D-----------------------------------------------------
A-----------------------------------------------------
E-----------------------------------------------------

e-0-0-0-0-0-0-----/18------/19-----0-0-0-0-0-------------------------------------------
B-3/5-5-5/7/9---------/18----------3/5-5-5/7/8----15-13-12h13p12---------15-13-12h13p12
G----------------------------------------------------------------14-12-----------------
D--------------------------------------------------------------------------------------
A--------------------------------------------------------------------------------------
E--------------------------------------------------------------------------------------

e-----------------------------------------------------------------15-17b19-15b19-17-15------
B---------12-15-12-15b17-15b17------------------------15----15/17----------------------15t--
G---------------14-12------------------------15-14-12----12---14/16----16-------------------
D-----------------------------------------------------14------------------------------------
A-------------------------------------------------------------------------------------------
E-------------------------------------------------------------------------------------------

       G       A/D    A       E    G        A/D     CC B A G
(whoa) in the garage, i feel safe, no one cares about my ways
G       A/D    A       E      G       A/D      CC   B  A G
in the garage where i belong, no one hears me sing this song
G       A/D    A       E    G        A/D     CC B A G
in the garage, i feel safe, no one cares about my ways
G       A/D    A       E      G       A/D      E5    D      C
in the garage where i belong, no one hears me, no one hears me
G            A/D   E5   D     C   G            A/D
no one hears me, no one hears me, no one hears me 
C C    B     A
sing this song

A A  G  A A G