Weezer-The World Has Turned and Left Me Here

Tune down to Eb

 G           D/A                  B              C
-----------------------------------------------------------------------
-----0--------------0------------------0----------0--------------------
-------0--------------0------------------0----------0------------------
---------0------0--------0----0-----0------0----------0----------------
-------------2-------------------2-----------2--3-------0--------------
-3--------------------------3------------------------------------------

G   D/A       B          C
The world has turned and left me here
G    D/A     B     C
Just where I was before you appeared
G   D/A     B        C
and in your place an empty space
G   D/A        B      C
Has filled the void behind my face

Em          C                  A
I just made love to your sweet memory
C/G
one thousand times in my head
Em           C                  A
you said you loved it more than ever
C/G
you said

B           C
You remain, turned away
B           C         D/A
turning further every day

The world has turned and left me here
just where I was before you appeared
and in your place an empty space
has filled the void behind my face

I talked for hours to your wallet photograph
and you just listened
you laughed enchanted by my intellect
or maybe you didn't

You remain, turned away
turning further every day

Solo
-----------------------------------------------------------------------
-----------------------------------------------------------------------
----------------------------------7/9-9-9-9-9-9-7-9h10p9---------------
5-5-5-5-5-5-5-5/7-9-9-9-9-9-9-9-9--------------------------------------
-----------------------------------------------------------------------
-----------------------------------------------------------------------

-----------------------------------------------------------------------
-12p10--------12p10--------15-15-12-15-12-15b17-15-12------------------
--------12-11-------12-11-----------------------------15-14-12----14-12
---------------------------------------------------------------14------
-----------------------------------------------------------------------
-----------------------------------------------------------------------


                                            *Play this along w/chords
*You remain turned away                    B --7--7--8--8--7-7-8-8
Turning further every day.                 G ---------------------

G         D/A         B    C
Do you believe what I sing now?


-----------------------------------------------------------------------
----0-------------0------------------0----------------0-------------0--
------0-------------0----------------------0-------------------0-------
--------0-------------0-----0-----0-----0---------------0---------0----
-------------2---------------------------------2---2-------------------
-3---------3---3---------3-----3-------------3---3----------3----------

-----------------------------------------------------------------------
-----0-----------------------------------------------------------------
-------0---------0--4p0------------------------------------------------
---------0--0h2----------2p0-------------------------------------------
-----------------------------------------------------------------------
--3----------------------------3---------------------------------------