Zutons - Valerie

Tuning - down half a step to Eb

Intro (repeated)
    E
Eb|-7-----7-----|
Bb|---9-----9---|
Gb|-----9-----9-|
Db|-------------|
Ab|-------------|
Eb|-------------|

Verse
         E (12th fret)
Well sometimes I go out, by myself
                        F#m (14th fret)
And I look across the water,
         E
And I think of all the things, what you're doing
                        F#m
And in my head I make a picture

Chorus
    A (12th fret)
Cos since I've come on home,
        G#m (10th fret)
Well my body's been a mess
        A
And I've missed your ginger hair
        G#m
And the way you like to dress
A
Won't you come on over
G#m                      B (14th fret)
Stop making a fool out of me

Why won't you come on over 
    E
Valerie?
|--------------------------------|---------------------------------|
|--------------------------------|---------------------------------|
|--------------------------------|---------------------------------|
|--------------------------------|---------------------------------|
|----------------------2-4-2--4--|-----------------------2-4-2--4--|
|---0-0--0-0--0--0---4-----------|----0-0--0-0--0--0---4-----------|

    F#m
Valerie?
|--------------------------------|---------------------------------|
|--------------------------------|---------------------------------|
|--------------------------------|---------------------------------|
|--------------------------------|---------------------------------|
|----------------------2-4-2--4--|-----------------------2-4-2--4--|
|---2-2--2-2--2--2---4-----------|----2-2--2-2--2--2---4-----------|

Verse
Did you have to go to jail,
Put your house up on for sale, did you get a good lawyer?
I hope you didn't catch a tan,
I hope you'll find the right man who'll fix it for ya
And are you shoppin' anywhere,
Changed the colour of you hair, are you busy?
And did you have to pay the fine
You were dodging all the time, are you still dizzy?

Chorus

E
Valerie?
F#m
Valerie?

Verse
NC
Well sometimes I go out by myself
And I look across the water
And I think of all the things, what you're doing
                        F#m
And in my head I make a picture

Chorus

E (riff played up 12 frets)
Valerie?
F#m
Valerie?
E
Valerie?

http://www.sparkystabs.co.uk